  0
SECTION
  2
HEADER
  9
$ACADVER
  1
AC1015
  9
$ACADMAINTVER
 70
     6
  9
$DWGCODEPAGE
  3
ANSI_1254
  9
$INSBASE
 10
0.0
 20
0.0
 30
0.0
  9
$EXTMIN
 10
0.0
 20
0.0
 30
0.0
  9
$EXTMAX
 10
279.4
 20
215.9
 30
0.0
  9
$LIMMIN
 10
0.0
 20
0.0
  9
$LIMMAX
 10
279.4
 20
215.9
  9
$ORTHOMODE
 70
     0
  9
$REGENMODE
 70
     1
  9
$FILLMODE
 70
     1
  9
$QTEXTMODE
 70
     0
  9
$MIRRTEXT
 70
     1
  9
$LTSCALE
 40
1.0
  9
$ATTMODE
 70
     1
  9
$TEXTSIZE
 40
3.5
  9
$TRACEWID
 40
1.0
  9
$TEXTSTYLE
  7
Standard
  9
$CLAYER
  8
0
  9
$CELTYPE
  6
ByLayer
  9
$CECOLOR
 62
   256
  9
$CELTSCALE
 40
1.0
  9
$DISPSILH
 70
     0
  9
$DIMSCALE
 40
1.0
  9
$DIMASZ
 40
3.5
  9
$DIMEXO
 40
1.0
  9
$DIMDLI
 40
3.75
  9
$DIMRND
 40
0.0
  9
$DIMDLE
 40
0.0
  9
$DIMEXE
 40
1.0
  9
$DIMTP
 40
0.0
  9
$DIMTM
 40
0.0
  9
$DIMTXT
 40
3.5
  9
$DIMCEN
 40
2.5
  9
$DIMTSZ
 40
0.0
  9
$DIMTOL
 70
     0
  9
$DIMLIM
 70
     0
  9
$DIMTIH
 70
     1
  9
$DIMTOH
 70
     1
  9
$DIMSE1
 70
     0
  9
$DIMSE2
 70
     0
  9
$DIMTAD
 70
     1
  9
$DIMZIN
 70
     0
  9
$DIMBLK
  1

  9
$DIMASO
 70
     1
  9
$DIMSHO
 70
     1
  9
$DIMPOST
  1

  9
$DIMAPOST
  1

  9
$DIMALT
 70
     0
  9
$DIMALTD
 70
     3
  9
$DIMALTF
 40
0.0393700787
  9
$DIMLFAC
 40
1.0
  9
$DIMTOFL
 70
     1
  9
$DIMTVP
 40
0.0
  9
$DIMTIX
 70
     0
  9
$DIMSOXD
 70
     0
  9
$DIMSAH
 70
     0
  9
$DIMBLK1
  1

  9
$DIMBLK2
  1

  9
$DIMSTYLE
  2
ISO-25
  9
$DIMCLRD
 70
     0
  9
$DIMCLRE
 70
     0
  9
$DIMCLRT
 70
     0
  9
$DIMTFAC
 40
1.0
  9
$DIMGAP
 40
1.524
  9
$DIMJUST
 70
     0
  9
$DIMSD1
 70
     0
  9
$DIMSD2
 70
     0
  9
$DIMTOLJ
 70
     0
  9
$DIMTZIN
 70
     0
  9
$DIMALTZ
 70
     0
  9
$DIMALTTZ
 70
     0
  9
$DIMUPT
 70
     0
  9
$DIMDEC
 70
     2
  9
$DIMTDEC
 70
     2
  9
$DIMALTU
 70
     2
  9
$DIMALTTD
 70
     3
  9
$DIMTXSTY
  7
Standard
  9
$DIMAUNIT
 70
     0
  9
$DIMADEC
 70
     2
  9
$DIMALTRND
 40
0.0
  9
$DIMAZIN
 70
     0
  9
$DIMDSEP
 70
    44
  9
$DIMATFIT
 70
     3
  9
$DIMFRAC
 70
     0
  9
$DIMLDRBLK
  1

  9
$DIMLUNIT
 70
     2
  9
$DIMLWD
 70
    -2
  9
$DIMLWE
 70
    -2
  9
$DIMTMOVE
 70
     0
  9
$LUNITS
 70
     2
  9
$LUPREC
 70
     2
  9
$SKETCHINC
 40
1.0
  9
$FILLETRAD
 40
10.0
  9
$AUNITS
 70
     0
  9
$AUPREC
 70
     2
  9
$MENU
  1
.
  9
$ELEVATION
 40
0.0
  9
$PELEVATION
 40
0.0
  9
$THICKNESS
 40
0.0
  9
$LIMCHECK
 70
     0
  9
$CHAMFERA
 40
0.0
  9
$CHAMFERB
 40
0.0
  9
$CHAMFERC
 40
0.0
  9
$CHAMFERD
 40
0.0
  9
$SKPOLY
 70
     0
  9
$TDCREATE
 40
2459935.700527731
  9
$TDUCREATE
 40
2459935.575527731
  9
$TDUPDATE
 40
2459935.700527859
  9
$TDUUPDATE
 40
2459935.575527859
  9
$TDINDWG
 40
0.0000000116
  9
$TDUSRTIMER
 40
0.0000000116
  9
$USRTIMER
 70
     1
  9
$ANGBASE
 50
0.0
  9
$ANGDIR
 70
     0
  9
$PDMODE
 70
     0
  9
$PDSIZE
 40
-1.0
  9
$PLINEWID
 40
0.0
  9
$SPLFRAME
 70
     0
  9
$SPLINETYPE
 70
     6
  9
$SPLINESEGS
 70
     8
  9
$HANDSEED
  5
D2
  9
$SURFTAB1
 70
     6
  9
$SURFTAB2
 70
     6
  9
$SURFTYPE
 70
     6
  9
$SURFU
 70
     6
  9
$SURFV
 70
     6
  9
$UCSBASE
  2

  9
$UCSNAME
  2

  9
$UCSORG
 10
0.0
 20
0.0
 30
0.0
  9
$UCSXDIR
 10
1.0
 20
0.0
 30
0.0
  9
$UCSYDIR
 10
0.0
 20
1.0
 30
0.0
  9
$UCSORTHOREF
  2

  9
$UCSORTHOVIEW
 70
     0
  9
$UCSORGTOP
 10
0.0
 20
0.0
 30
0.0
  9
$UCSORGBOTTOM
 10
0.0
 20
0.0
 30
0.0
  9
$UCSORGLEFT
 10
0.0
 20
0.0
 30
0.0
  9
$UCSORGRIGHT
 10
0.0
 20
0.0
 30
0.0
  9
$UCSORGFRONT
 10
0.0
 20
0.0
 30
0.0
  9
$UCSORGBACK
 10
0.0
 20
0.0
 30
0.0
  9
$PUCSBASE
  2

  9
$PUCSNAME
  2

  9
$PUCSORG
 10
0.0
 20
0.0
 30
0.0
  9
$PUCSXDIR
 10
1.0
 20
0.0
 30
0.0
  9
$PUCSYDIR
 10
0.0
 20
1.0
 30
0.0
  9
$PUCSORTHOREF
  2

  9
$PUCSORTHOVIEW
 70
     0
  9
$PUCSORGTOP
 10
0.0
 20
0.0
 30
0.0
  9
$PUCSORGBOTTOM
 10
0.0
 20
0.0
 30
0.0
  9
$PUCSORGLEFT
 10
0.0
 20
0.0
 30
0.0
  9
$PUCSORGRIGHT
 10
0.0
 20
0.0
 30
0.0
  9
$PUCSORGFRONT
 10
0.0
 20
0.0
 30
0.0
  9
$PUCSORGBACK
 10
0.0
 20
0.0
 30
0.0
  9
$USERI1
 70
     0
  9
$USERI2
 70
     0
  9
$USERI3
 70
     0
  9
$USERI4
 70
     0
  9
$USERI5
 70
     0
  9
$USERR1
 40
0.0
  9
$USERR2
 40
0.0
  9
$USERR3
 40
0.0
  9
$USERR4
 40
0.0
  9
$USERR5
 40
0.0
  9
$WORLDVIEW
 70
     1
  9
$SHADEDGE
 70
     3
  9
$SHADEDIF
 70
    70
  9
$TILEMODE
 70
     1
  9
$MAXACTVP
 70
    64
  9
$PINSBASE
 10
0.0
 20
0.0
 30
0.0
  9
$PLIMCHECK
 70
     0
  9
$PEXTMIN
 10
1.0000000000E+20
 20
1.0000000000E+20
 30
1.0000000000E+20
  9
$PEXTMAX
 10
-1.0000000000E+20
 20
-1.0000000000E+20
 30
-1.0000000000E+20
  9
$PLIMMIN
 10
0.0
 20
0.0
  9
$PLIMMAX
 10
420.0
 20
297.0
  9
$UNITMODE
 70
     0
  9
$VISRETAIN
 70
     1
  9
$PLINEGEN
 70
     0
  9
$PSLTSCALE
 70
     1
  9
$TREEDEPTH
 70
  3020
  9
$CMLSTYLE
  2
Standard
  9
$CMLJUST
 70
     0
  9
$CMLSCALE
 40
20.0
  9
$PROXYGRAPHICS
 70
     1
  9
$MEASUREMENT
 70
     1
  9
$CELWEIGHT
370
    -1
  9
$ENDCAPS
280
     0
  9
$JOINSTYLE
280
     0
  9
$LWDISPLAY
290
     1
  9
$INSUNITS
 70
     4
  9
$HYPERLINKBASE
  1

  9
$STYLESHEET
  1

  9
$XEDIT
290
     1
  9
$CEPSNTYPE
380
     0
  9
$PSTYLEMODE
290
     1
  9
$FINGERPRINTGUID
  2
{28ff9d37-5398-4e44-80af-54e2db06072b}
  9
$VERSIONGUID
  2
{FAEB1C32-E019-11D5-929B-00C0DF256EC4}
  9
$EXTNAMES
290
     1
  9
$PSVPSCALE
 40
0.0
  9
$OLESTARTUP
290
     0
  0
ENDSEC
  0
SECTION
  2
CLASSES
  0
CLASS
  1
ACDBDICTIONARYWDFLT
  2
AcDbDictionaryWithDefault
  3
ObjectDBX Classes
 90
        0
280
     0
281
     0
  0
CLASS
  1
VISUALSTYLE
  2
AcDbVisualStyle
  3
ObjectDBX Classes
 90
     4095
280
     0
281
     0
  0
CLASS
  1
MATERIAL
  2
AcDbMaterial
  3
ObjectDBX Classes
 90
     1153
280
     0
281
     0
  0
CLASS
  1
SCALE
  2
AcDbScale
  3
ObjectDBX Classes
 90
     1153
280
     0
281
     0
  0
CLASS
  1
TABLESTYLE
  2
AcDbTableStyle
  3
ObjectDBX Classes
 90
     4095
280
     0
281
     0
  0
CLASS
  1
MLEADERSTYLE
  2
AcDbMLeaderStyle
  3
ACDB_MLEADERSTYLE_CLASS
 90
     4095
280
     0
281
     0
  0
CLASS
  1
SUN
  2
AcDbSun
  3
SCENEOE
 90
     1153
280
     0
281
     0
  0
CLASS
  1
ACDBPLACEHOLDER
  2
AcDbPlaceHolder
  3
ObjectDBX Classes
 90
        0
280
     0
281
     0
  0
CLASS
  1
LAYOUT
  2
AcDbLayout
  3
ObjectDBX Classes
 90
        0
280
     0
281
     0
  0
ENDSEC
  0
SECTION
  2
TABLES
  0
TABLE
  2
VPORT
  5
8
330
0
100
AcDbSymbolTable
 70
     1
  0
VPORT
  5
29
330
8
100
AcDbSymbolTableRecord
100
AcDbViewportTableRecord
  2
*Active
 70
     0
 10
0.0
 20
0.0
 11
1.0
 21
1.0
 12
139.7
 22
107.95
 13
0.0
 23
0.0
 14
10.0
 24
10.0
 15
10.0
 25
10.0
 16
0.0
 26
0.0
 36
1.0
 17
0.0
 27
0.0
 37
0.0
 40
215.9
 41
1.2941176471
 42
50.0
 43
0.0
 44
0.0
 50
0.0
 51
0.0
 71
     0
 72
  2000
 73
     1
 74
     3
 75
     0
 76
     0
 77
     0
 78
     0
281
     0
 65
     1
110
0.0
120
0.0
130
0.0
111
1.0
121
0.0
131
0.0
112
0.0
122
1.0
132
0.0
 79
     0
146
0.0
  0
ENDTAB
  0
TABLE
  2
LTYPE
  5
5
330
0
100
AcDbSymbolTable
 70
     6
  0
LTYPE
  5
14
330
5
100
AcDbSymbolTableRecord
100
AcDbLinetypeTableRecord
  2
ByBlock
 70
     0
  3

 72
    65
 73
     0
 40
0.0
  0
LTYPE
  5
15
330
5
100
AcDbSymbolTableRecord
100
AcDbLinetypeTableRecord
  2
ByLayer
 70
     0
  3

 72
    65
 73
     0
 40
0.0
  0
LTYPE
  5
16
330
5
100
AcDbSymbolTableRecord
100
AcDbLinetypeTableRecord
  2
Continuous
 70
     0
  3
Solid line
 72
    65
 73
     0
 40
0.0
  0
LTYPE
  5
6E
330
5
100
AcDbSymbolTableRecord
100
AcDbLinetypeTableRecord
  2
HIDDEN
 70
     0
  3
Hidden __ __ __ __ __ __ __ __ __ __ __ __ __ __
 72
    65
 73
     2
 40
1.905
 49
1.27
 74
     0
 49
-0.635
 74
     0
  0
LTYPE
  5
6F
330
5
100
AcDbSymbolTableRecord
100
AcDbLinetypeTableRecord
  2
PHANTOM
 70
     0
  3
Phantom ______  __  __  ______  __  __  ______
 72
    65
 73
     6
 40
12.7
 49
6.35
 74
     0
 49
-1.27
 74
     0
 49
1.27
 74
     0
 49
-1.27
 74
     0
 49
1.27
 74
     0
 49
-1.27
 74
     0
  0
LTYPE
  5
70
330
5
100
AcDbSymbolTableRecord
100
AcDbLinetypeTableRecord
  2
CENTER
 70
     0
  3
Center ____ _ ____ _ ____ _ ____ _ ____ _ ____
 72
    65
 73
     4
 40
10.16
 49
6.35
 74
     0
 49
-1.27
 74
     0
 49
1.27
 74
     0
 49
-1.27
 74
     0
  0
LTYPE
  5
71
330
5
100
AcDbSymbolTableRecord
100
AcDbLinetypeTableRecord
  2
CENTERX2
 70
     0
  3
Center (2x) ________  __  ________  __  _____
 72
    65
 73
     4
 40
20.32
 49
12.7
 74
     0
 49
-2.54
 74
     0
 49
2.54
 74
     0
 49
-2.54
 74
     0
  0
LTYPE
  5
72
330
5
100
AcDbSymbolTableRecord
100
AcDbLinetypeTableRecord
  2
DOT2
 70
     0
  3
Dot (.5x) ........................................
 72
    65
 73
     2
 40
0.635
 49
0.0
 74
     0
 49
-0.635
 74
     0
  0
ENDTAB
  0
TABLE
  2
LAYER
  5
2
330
0
100
AcDbSymbolTable
 70
    17
  0
LAYER
  5
10
330
2
100
AcDbSymbolTableRecord
100
AcDbLayerTableRecord
  2
0
 70
     0
 62
     7
  6
Continuous
370
    -3
390
F
  0
LAYER
  5
73
330
2
100
AcDbSymbolTableRecord
100
AcDbLayerTableRecord
  2
FORMAT
 70
     0
 62
     7
  6
Continuous
370
    -3
390
F
  0
LAYER
  5
74
330
2
100
AcDbSymbolTableRecord
100
AcDbLayerTableRecord
  2
YARDIMCI_GEOMETRI
 70
     0
 62
    -6
  6
Continuous
290
     0
370
    -3
390
F
  0
LAYER
  5
75
330
2
100
AcDbSymbolTableRecord
100
AcDbLayerTableRecord
  2
SAYFA_CERCEVESI
 70
     0
 62
     7
  6
Continuous
370
    25
390
F
  0
LAYER
  5
76
330
2
100
AcDbSymbolTableRecord
100
AcDbLayerTableRecord
  2
ANTET
 70
     0
 62
     7
  6
Continuous
370
    -3
390
F
  0
LAYER
  5
77
330
2
100
AcDbSymbolTableRecord
100
AcDbLayerTableRecord
  2
OLCU
 70
     0
 62
   150
  6
Continuous
370
    -3
390
F
  0
LAYER
  5
78
330
2
100
AcDbSymbolTableRecord
100
AcDbLayerTableRecord
  2
METIN
 70
     0
 62
    96
  6
Continuous
370
    -3
390
F
  0
LAYER
  5
79
330
2
100
AcDbSymbolTableRecord
100
AcDbLayerTableRecord
  2
BALON
 70
     0
 62
     5
  6
Continuous
370
    -3
390
F
  0
LAYER
  5
7A
330
2
100
AcDbSymbolTableRecord
100
AcDbLayerTableRecord
  2
VURGU
 70
     0
 62
     7
  6
Continuous
370
    -3
390
F
  0
LAYER
  5
7B
330
2
100
AcDbSymbolTableRecord
100
AcDbLayerTableRecord
  2
SILIK
 70
     0
 62
     7
  6
Continuous
370
    -3
390
F
  0
LAYER
  5
7C
330
2
100
AcDbSymbolTableRecord
100
AcDbLayerTableRecord
  2
MODEL
 70
     0
 62
     7
  6
Continuous
370
    -3
390
F
  0
LAYER
  5
7D
330
2
100
AcDbSymbolTableRecord
100
AcDbLayerTableRecord
  2
DETAYLANDıRMA
 70
     0
 62
   190
  6
Continuous
370
    -3
390
F
  0
LAYER
  5
7E
330
2
100
AcDbSymbolTableRecord
100
AcDbLayerTableRecord
  2
TOLERANS
 70
     0
 62
   230
  6
Continuous
370
    -3
390
F
  0
LAYER
  5
7F
330
2
100
AcDbSymbolTableRecord
100
AcDbLayerTableRecord
  2
MERKEZ_CIZGILERI
 70
     0
 62
    30
  6
Continuous
370
    -3
390
F
  0
LAYER
  5
80
330
2
100
AcDbSymbolTableRecord
100
AcDbLayerTableRecord
  2
KESIT-DETAY_CIZGILERI
 70
     0
 62
     7
  6
Continuous
370
    -3
390
F
  0
LAYER
  5
81
330
2
100
AcDbSymbolTableRecord
100
AcDbLayerTableRecord
  2
\U+041E\U+0421\U+0415\U+0412\U+042B\U+0415
 70
     0
 62
     7
  6
Continuous
370
    -3
390
F
  0
LAYER
  5
82
330
2
100
AcDbSymbolTableRecord
100
AcDbLayerTableRecord
  2
\U+0412\U+041E\U+0414\U+042F\U+041D\U+042B\U+0415_\U+0417\U+041D\U+0410\U+041A\U+0418
 70
     0
 62
    11
  6
Continuous
370
    -3
390
F
  0
ENDTAB
  0
TABLE
  2
STYLE
  5
3
330
0
100
AcDbSymbolTable
 70
     1
  0
STYLE
  5
11
330
3
100
AcDbSymbolTableRecord
100
AcDbTextStyleTableRecord
  2
Standard
 70
     0
 40
0.0
 41
1.0
 50
0.0
 71
     0
 42
3.5
  3
txt
  4

  0
ENDTAB
  0
TABLE
  2
VIEW
  5
6
330
0
100
AcDbSymbolTable
 70
     0
  0
ENDTAB
  0
TABLE
  2
UCS
  5
7
330
0
100
AcDbSymbolTable
 70
     0
  0
ENDTAB
  0
TABLE
  2
APPID
  5
9
330
0
100
AcDbSymbolTable
 70
     1
  0
APPID
  5
12
330
9
100
AcDbSymbolTableRecord
100
AcDbRegAppTableRecord
  2
ACAD
 70
     0
  0
ENDTAB
  0
TABLE
  2
DIMSTYLE
  5
A
330
0
100
AcDbSymbolTable
 70
     1
100
AcDbDimStyleTable
  0
DIMSTYLE
105
27
330
A
100
AcDbSymbolTableRecord
100
AcDbDimStyleTableRecord
  2
ISO-25
 70
     0
 41
2.5
 42
0.625
 43
3.75
 44
1.25
 73
     0
 74
     0
 77
     1
 78
     8
140
2.5
141
2.5
143
0.0393700787
147
0.625
171
     3
172
     1
178
     0
271
     2
272
     2
274
     3
278
    44
283
     0
284
     8
340
11
  0
ENDTAB
  0
TABLE
  2
BLOCK_RECORD
  5
1
330
0
100
AcDbSymbolTable
 70
     3
  0
BLOCK_RECORD
  5
1F
330
1
100
AcDbSymbolTableRecord
100
AcDbBlockTableRecord
  2
*Model_Space
340
22
  0
BLOCK_RECORD
  5
1B
330
1
100
AcDbSymbolTableRecord
100
AcDbBlockTableRecord
  2
*Paper_Space
340
1E
  0
BLOCK_RECORD
  5
23
330
1
100
AcDbSymbolTableRecord
100
AcDbBlockTableRecord
  2
*Paper_Space0
340
26
  0
BLOCK_RECORD
  5
88
330
1
100
AcDbSymbolTableRecord
100
AcDbBlockTableRecord
  2
SW_CENTERMARKSYMBOL_0
340
0
102
{BLKREFS
331
93
102
}
  0
BLOCK_RECORD
  5
BB
330
1
100
AcDbSymbolTableRecord
100
AcDbBlockTableRecord
  2
SW_CENTERMARKSYMBOL_1
340
0
102
{BLKREFS
331
C6
102
}
  0
ENDTAB
  0
ENDSEC
  0
SECTION
  2
BLOCKS
  0
BLOCK
  5
20
330
1F
100
AcDbEntity
  8
0
100
AcDbBlockBegin
  2
*Model_Space
 70
     0
 10
0.0
 20
0.0
 30
0.0
  3
*Model_Space
  1

  0
ENDBLK
  5
21
330
1F
100
AcDbEntity
  8
0
100
AcDbBlockEnd
  0
BLOCK
  5
1C
330
1B
100
AcDbEntity
 67
     1
  8
0
100
AcDbBlockBegin
  2
*Paper_Space
 70
     0
 10
0.0
 20
0.0
 30
0.0
  3
*Paper_Space
  1

  0
ENDBLK
  5
1D
330
1B
100
AcDbEntity
 67
     1
  8
0
100
AcDbBlockEnd
  0
BLOCK
  5
24
330
23
100
AcDbEntity
  8
0
100
AcDbBlockBegin
  2
*Paper_Space0
 70
     0
 10
0.0
 20
0.0
 30
0.0
  3
*Paper_Space0
  1

  0
ENDBLK
  5
25
330
23
100
AcDbEntity
  8
0
100
AcDbBlockEnd
  0
BLOCK
  5
89
330
88
100
AcDbEntity
  8
0
100
AcDbBlockBegin
  2
SW_CENTERMARKSYMBOL_0
 70
     0
 10
0.0
 20
0.0
 30
0.0
  3
SW_CENTERMARKSYMBOL_0
  1

  0
LINE
  5
8B
330
88
100
AcDbEntity
  8
FORMAT
 62
     0
100
AcDbLine
 10
0.0
 20
0.0
 30
0.0
 11
0.0
 21
2.5
 31
0.0
  0
LINE
  5
8C
330
88
100
AcDbEntity
  8
FORMAT
 62
     0
100
AcDbLine
 10
0.0
 20
0.0
 30
0.0
 11
-2.5
 21
0.0
 31
0.0
  0
LINE
  5
8D
330
88
100
AcDbEntity
  8
FORMAT
 62
     0
100
AcDbLine
 10
0.0
 20
0.0
 30
0.0
 11
0.0
 21
-2.5
 31
0.0
  0
LINE
  5
8E
330
88
100
AcDbEntity
  8
FORMAT
 62
     0
100
AcDbLine
 10
0.0
 20
0.0
 30
0.0
 11
2.5
 21
0.0
 31
0.0
  0
LINE
  5
8F
330
88
100
AcDbEntity
  8
FORMAT
 62
     0
100
AcDbLine
 10
0.0
 20
5.0
 30
0.0
 11
0.0
 21
72.5
 31
0.0
  0
LINE
  5
90
330
88
100
AcDbEntity
  8
FORMAT
 62
     0
100
AcDbLine
 10
-5.0
 20
0.0
 30
0.0
 11
-72.5
 21
0.0
 31
0.0
  0
LINE
  5
91
330
88
100
AcDbEntity
  8
FORMAT
 62
     0
100
AcDbLine
 10
0.0
 20
-5.0
 30
0.0
 11
0.0
 21
-72.5
 31
0.0
  0
LINE
  5
92
330
88
100
AcDbEntity
  8
FORMAT
 62
     0
100
AcDbLine
 10
5.0
 20
0.0
 30
0.0
 11
72.5
 21
0.0
 31
0.0
  0
ENDBLK
  5
8A
330
88
100
AcDbEntity
  8
0
100
AcDbBlockEnd
  0
BLOCK
  5
BC
330
BB
100
AcDbEntity
  8
0
100
AcDbBlockBegin
  2
SW_CENTERMARKSYMBOL_1
 70
     0
 10
0.0
 20
0.0
 30
0.0
  3
SW_CENTERMARKSYMBOL_1
  1

  0
LINE
  5
BE
330
BB
100
AcDbEntity
  8
FORMAT
 62
     0
100
AcDbLine
 10
0.0
 20
0.0
 30
0.0
 11
0.0
 21
2.5
 31
0.0
  0
LINE
  5
BF
330
BB
100
AcDbEntity
  8
FORMAT
 62
     0
100
AcDbLine
 10
0.0
 20
0.0
 30
0.0
 11
-2.5
 21
0.0
 31
0.0
  0
LINE
  5
C0
330
BB
100
AcDbEntity
  8
FORMAT
 62
     0
100
AcDbLine
 10
0.0
 20
0.0
 30
0.0
 11
0.0
 21
-2.5
 31
0.0
  0
LINE
  5
C1
330
BB
100
AcDbEntity
  8
FORMAT
 62
     0
100
AcDbLine
 10
0.0
 20
0.0
 30
0.0
 11
2.5
 21
0.0
 31
0.0
  0
LINE
  5
C2
330
BB
100
AcDbEntity
  8
FORMAT
 62
     0
100
AcDbLine
 10
0.0
 20
5.0
 30
0.0
 11
0.0
 21
72.5
 31
0.0
  0
LINE
  5
C3
330
BB
100
AcDbEntity
  8
FORMAT
 62
     0
100
AcDbLine
 10
-5.0
 20
0.0
 30
0.0
 11
-72.5
 21
0.0
 31
0.0
  0
LINE
  5
C4
330
BB
100
AcDbEntity
  8
FORMAT
 62
     0
100
AcDbLine
 10
0.0
 20
-5.0
 30
0.0
 11
0.0
 21
-72.5
 31
0.0
  0
LINE
  5
C5
330
BB
100
AcDbEntity
  8
FORMAT
 62
     0
100
AcDbLine
 10
5.0
 20
0.0
 30
0.0
 11
72.5
 21
0.0
 31
0.0
  0
ENDBLK
  5
BD
330
BB
100
AcDbEntity
  8
0
100
AcDbBlockEnd
  0
ENDSEC
  0
SECTION
  2
ENTITIES
  0
LINE
  5
83
330
1F
100
AcDbEntity
  8
0
  6
Continuous
 62
     7
370
    25
100
AcDbLine
 10
77.9095018082
 20
38.7403641006
 30
0.0
 11
266.9095018082
 21
38.7403641006
 31
0.0
  0
LINE
  5
84
330
1F
100
AcDbEntity
  8
0
  6
Continuous
 62
     7
370
    25
100
AcDbLine
 10
266.9095018082
 20
178.7403641006
 30
0.0
 11
77.9095018082
 21
178.7403641006
 31
0.0
  0
CIRCLE
  5
85
330
1F
100
AcDbEntity
  8
0
  6
Continuous
 62
     7
370
    25
100
AcDbCircle
 10
77.9095018082
 20
108.7403641006
 30
0.0
 40
61.7
  0
CIRCLE
  5
86
330
1F
100
AcDbEntity
  8
0
  6
Continuous
 62
     7
370
    25
100
AcDbCircle
 10
77.9095018082
 20
108.7403641006
 30
0.0
 40
70.00000000000004
  0
LINE
  5
87
330
1F
100
AcDbEntity
  8
0
  6
Continuous
 62
     7
370
    25
100
AcDbLine
 10
266.9095018082
 20
178.7403641006
 30
0.0
 11
266.9095018082
 21
38.7403641006
 31
0.0
  0
INSERT
  5
93
330
1F
100
AcDbEntity
  8
FORMAT
100
AcDbBlockReference
  2
SW_CENTERMARKSYMBOL_0
 10
77.9095018082
 20
108.7403641006
 30
0.0
  0
LINE
  5
94
330
1F
100
AcDbEntity
  8
0
  6
Continuous
 62
     7
370
    25
100
AcDbLine
 10
147.9095018082
 20
525.3535565428
 30
0.0
 11
147.9095018082
 21
644.3535565428
 31
0.0
  0
LINE
  5
95
330
1F
100
AcDbEntity
  8
0
  6
Continuous
 62
     7
370
    25
100
AcDbLine
 10
147.9095018082
 20
266.3535565428
 30
0.0
 11
147.9095018082
 21
385.3535565428
 31
0.0
  0
LINE
  5
96
330
1F
100
AcDbEntity
  8
0
  6
Continuous
 62
     7
370
    25
100
AcDbLine
 10
7.9095018082
 20
644.3535565428
 30
0.0
 11
7.9095018082
 21
266.3535565428
 31
0.0
  0
LINE
  5
97
330
1F
100
AcDbEntity
  8
0
  6
Continuous
 62
     7
370
    25
100
AcDbLine
 10
147.9095018082
 20
385.3535565428
 30
0.0
 11
266.9095018082
 21
385.3535565428
 31
0.0
  0
LINE
  5
98
330
1F
100
AcDbEntity
  8
0
  6
Continuous
 62
     7
370
    25
100
AcDbLine
 10
266.9095018082
 20
525.3535565428
 30
0.0
 11
147.9095018082
 21
525.3535565428
 31
0.0
  0
LINE
  5
99
330
1F
100
AcDbEntity
  8
0
  6
Continuous
 62
     7
370
    25
100
AcDbLine
 10
147.9095018082
 20
525.3535565428
 30
0.0
 11
77.9095018082
 21
455.3535565428
 31
0.0
  0
LINE
  5
9A
330
1F
100
AcDbEntity
  8
0
  6
Continuous
 62
     7
370
    25
100
AcDbLine
 10
77.9095018082
 20
455.3535565428
 30
0.0
 11
147.9095018082
 21
385.3535565428
 31
0.0
  0
LINE
  5
9B
330
1F
100
AcDbEntity
  8
0
  6
Continuous
 62
     7
370
    25
100
AcDbLine
 10
7.9095018082
 20
644.3535565428
 30
0.0
 11
147.9095018082
 21
644.3535565428
 31
0.0
  0
LINE
  5
9C
330
1F
100
AcDbEntity
  8
0
  6
Continuous
 62
     7
370
    25
100
AcDbLine
 10
7.9095018082
 20
266.3535565428
 30
0.0
 11
147.9095018082
 21
266.3535565428
 31
0.0
  0
LINE
  5
9D
330
1F
100
AcDbEntity
  8
0
  6
Continuous
 62
     7
370
    25
100
AcDbLine
 10
266.9095018082
 20
525.3535565428
 30
0.0
 11
266.9095018082
 21
385.3535565428
 31
0.0
  0
LINE
  5
9E
330
1F
100
AcDbEntity
  8
0
  6
Continuous
 62
     7
370
    25
100
AcDbLine
 10
563.7834519245
 20
38.7403641006
 30
0.0
 11
752.7834519245
 21
38.7403641006
 31
0.0
  0
LINE
  5
9F
330
1F
100
AcDbEntity
  8
0
  6
Continuous
 62
     7
370
    25
100
AcDbLine
 10
374.7834519245
 20
38.7403641006
 30
0.0
 11
563.7834519245
 21
38.7403641006
 31
0.0
  0
LINE
  5
A0
330
1F
100
AcDbEntity
  8
0
  6
Continuous
 62
     7
370
    25
100
AcDbLine
 10
563.7834519245
 20
178.7403641006
 30
0.0
 11
374.7834519245
 21
178.7403641006
 31
0.0
  0
LINE
  5
A1
330
1F
100
AcDbEntity
  8
0
  6
Continuous
 62
     7
370
    25
100
AcDbLine
 10
752.7834519245
 20
178.7403641006
 30
0.0
 11
563.7834519245
 21
178.7403641006
 31
0.0
  0
LINE
  5
A2
330
1F
100
AcDbEntity
  8
0
  6
Continuous
 62
     7
370
    25
100
AcDbLine
 10
752.7834519245
 20
178.7403641006
 30
0.0
 11
752.7834519245
 21
38.7403641006
 31
0.0
  0
LINE
  5
A3
330
1F
100
AcDbEntity
  8
0
  6
Continuous
 62
     7
370
    25
100
AcDbLine
 10
374.7834519245
 20
178.7403641006
 30
0.0
 11
374.7834519245
 21
38.7403641006
 31
0.0
  0
LINE
  5
A4
330
1F
100
AcDbEntity
  8
0
  6
Continuous
 62
     7
370
    25
100
AcDbLine
 10
597.466274634
 20
-258.3372428455
 30
0.0
 11
696.112300636
 21
-201.3901041884
 31
0.0
  0
LINE
  5
A5
330
1F
100
AcDbEntity
  8
0
  6
Continuous
 62
     7
370
    25
100
AcDbLine
 10
626.1179893515
 20
-80.1432634552
 30
0.0
 11
527.4719633495
 21
-137.0904021122
 31
0.0
  0
LINE
  5
A6
330
1F
100
AcDbEntity
  8
0
  6
Continuous
 62
     7
370
    25
100
AcDbLine
 10
527.4719633495
 20
-137.0904021122
 30
0.0
 11
428.8259373475
 21
-80.1432634552
 31
0.0
  0
LINE
  5
A7
330
1F
100
AcDbEntity
  8
0
  6
Continuous
 62
     7
370
    25
100
AcDbLine
 10
696.112300636
 20
-234.4443965896
 30
0.0
 11
667.4833417051
 21
-217.917250389
 31
0.0
  0
LINE
  5
A8
330
1F
100
AcDbEntity
  8
0
  6
Continuous
 62
     7
370
    25
100
AcDbLine
 10
358.831626063
 20
-201.3901041884
 30
0.0
 11
626.1179893515
 21
-355.6912373229
 31
0.0
  0
LWPOLYLINE
  5
A9
330
1F
100
AcDbEntity
  8
0
  6
Continuous
 62
     7
370
    25
100
AcDbPolyline
 90
       87
 70
   128
 43
0.0
 10
704.743633393
 20
-165.9528740715
 10
704.6272449617
 20
-162.2081390396
 10
704.2787006507
 20
-158.3490045669
 10
703.6998600944
 20
-154.3960608057
 10
702.8938116579
 20
-150.3703984211
 10
701.8648559583
 20
-146.293496064
 10
700.6184829193
 20
-142.1871057722
 10
699.1613424805
 20
-138.0731369147
 10
697.5012091165
 20
-133.9735392954
 10
695.6469403572
 20
-129.9101860414
 10
693.6084295286
 20
-125.9047569003
 10
691.3965529681
 20
-121.9786225698
 10
689.0231119941
 20
-118.152730675
 10
686.5007699411
 20
-114.4474940048
 10
683.8429845954
 20
-110.8826815998
 10
681.0639363917
 20
-107.4773132767
 10
678.1784527545
 20
-104.2495581489
 10
675.2019289877
 20
-101.2166376865
 10
672.1502461332
 20
-98.3947338324
 10
669.0396862396
 20
-95.7989026648
 10
665.8868454897
 20
-93.4429940659
 10
662.708545653
 20
-91.3395778276
 10
659.5217443345
 20
-89.4998765855
 10
656.3434444978
 20
-87.9337059418
 10
653.1906037479
 20
-86.6494220945
 10
650.0800438543
 20
-85.6538772536
 10
647.0283609998
 20
-84.9523830815
 10
644.051837233
 20
-84.5486823532
 10
641.1663535958
 20
-84.4449289868
 10
638.3873053921
 20
-84.6416765513
 10
635.7295200464
 20
-85.1378753133
 10
633.2071779934
 20
-85.9308778378
 10
630.8337370194
 20
-87.0164531132
 10
628.6218604589
 20
-88.3888091258
 10
626.5833496303
 20
-90.0406237623
 10
624.729080871
 20
-91.963083877
 10
623.068947507
 20
-94.1459323134
 10
621.6118070682
 20
-96.5775226306
 10
620.3654340292
 20
-99.2448812423
 10
619.3364783296
 20
-102.133776636
 10
618.5304298931
 20
-105.2287953051
 10
617.9515893368
 20
-108.5134239856
 10
617.6030450258
 20
-111.9701377625
 10
617.4866565945
 20
-115.5804935721
 10
617.6030450258
 20
-119.325228604
 10
617.9515893368
 20
-123.1843630767
 10
618.5304298931
 20
-127.1373068379
 10
619.3364783296
 20
-131.1629692225
 10
620.3654340292
 20
-135.2398715796
 10
621.6118070682
 20
-139.3462618714
 10
623.068947507
 20
-143.4602307289
 10
624.729080871
 20
-147.5598283482
 10
626.5833496303
 20
-151.6231816022
 10
628.6218604589
 20
-155.6286107433
 10
630.8337370194
 20
-159.5547450739
 10
633.2071779934
 20
-163.3806369686
 10
635.7295200464
 20
-167.0858736388
 10
638.3873053921
 20
-170.6506860438
 10
641.1663535958
 20
-174.0560543669
 10
644.051837233
 20
-177.2838094947
 10
647.0283609998
 20
-180.3167299571
 10
650.0800438543
 20
-183.1386338112
 10
653.1906037479
 20
-185.7344649788
 10
656.3434444978
 20
-188.0903735777
 10
659.5217443345
 20
-190.193789816
 10
662.708545653
 20
-192.0334910581
 10
665.8868454897
 20
-193.5996617018
 10
669.0396862396
 20
-194.8839455491
 10
672.1502461332
 20
-195.87949039
 10
675.2019289877
 20
-196.5809845621
 10
678.1784527545
 20
-196.9846852904
 10
681.0639363917
 20
-197.0884386568
 10
683.8429845954
 20
-196.8916910923
 10
686.5007699411
 20
-196.3954923303
 10
689.0231119941
 20
-195.6024898058
 10
691.3965529681
 20
-194.5169145304
 10
693.6084295286
 20
-193.1445585178
 10
695.6469403572
 20
-191.4927438813
 10
697.5012091165
 20
-189.5702837666
 10
699.1613424805
 20
-187.3874353302
 10
700.6184829193
 20
-184.955845013
 10
701.8648559583
 20
-182.2884864013
 10
702.8938116579
 20
-179.3995910076
 10
703.6998600944
 20
-176.3045723385
 10
704.2787006507
 20
-173.019943658
 10
704.6272449617
 20
-169.5632298811
 10
704.743633393
 20
-165.9528740715
  0
LWPOLYLINE
  5
AA
330
1F
100
AcDbEntity
  8
0
  6
Continuous
 62
     7
370
    25
100
AcDbPolyline
 90
       92
 70
   128
 43
0.0
 10
710.6126196768
 20
-169.3409677356
 10
710.4946806729
 20
-165.3294970433
 10
710.1414256941
 20
-161.2009733602
 10
709.5545381613
 20
-156.9750709817
 10
708.736814861
 20
-152.6719282571
 10
707.6921526169
 20
-148.3120516211
 10
706.4255297204
 20
-143.9162178715
 10
704.9429822065
 20
-139.5053751578
 10
703.2515750892
 20
-135.1005431543
 10
701.3593686936
 20
-130.7227128914
 10
699.275380245
 20
-126.392746724
 10
697.0095408973
 20
-122.1312789128
 10
694.572648407
 20
-117.9586172924
 10
691.9763156764
 20
-113.8946464958
 10
689.2329154134
 20
-109.9587331945
 10
686.3555211696
 20
-106.1696338078
 10
683.3578450389
 20
-102.5454051199
 10
680.2541723133
 20
-99.1033182308
 10
677.0592934066
 20
-95.8597762522
 10
673.7884333717
 20
-92.8302361386
 10
670.4571793464
 20
-90.0291350284
 10
667.0814062731
 20
-87.4698214439
 10
663.6772012477
 20
-85.1644916799
 10
660.2607868575
 20
-83.1241316826
 10
656.8484438729
 20
-81.3584646965
 10
653.4564336622
 20
-79.8759049288
 10
650.1009206988
 20
-78.6835174522
 10
646.79789553
 20
-77.7869845357
 10
643.5630985749
 20
-77.1905785672
 10
640.4119451141
 20
-76.8971416926
 10
637.359451829
 20
-76.9080722723
 10
634.4201652401
 20
-77.2233182171
 10
631.6080923865
 20
-77.8413772365
 10
628.936634076
 20
-78.7593039978
 10
626.4185210241
 20
-79.9727241619
 10
624.0657531862
 20
-81.4758552292
 10
621.8895425724
 20
-83.2615340957
 10
619.9002598174
 20
-85.3212511884
 10
618.1073847594
 20
-87.6451910172
 10
616.5194612645
 20
-90.2222789507
 10
615.1440565114
 20
-93.0402339911
 10
613.98772493
 20
-96.0856272995
 10
613.055976967
 20
-99.3439461899
 10
612.3532528256
 20
-102.7996632889
 10
611.8829013064
 20
-106.4363105308
 10
611.6471638487
 20
-110.2365576354
 10
611.6471638487
 20
-114.1822946947
 10
611.8829013064
 20
-118.2547184746
 10
612.3532528256
 20
-122.4344220213
 10
613.055976967
 20
-126.7014871439
 10
613.98772493
 20
-131.0355793339
 10
615.1440565114
 20
-135.4160446684
 10
616.5194612645
 20
-139.8220082351
 10
618.1073847594
 20
-144.2324736111
 10
619.9002598174
 20
-148.6264229205
 10
621.8895425724
 20
-152.9829169938
 10
624.0657531862
 20
-157.2811951528
 10
626.4185210241
 20
-161.5007741446
 10
628.936634076
 20
-165.6215457538
 10
631.6080923865
 20
-169.6238726271
 10
634.4201652401
 20
-173.4886818541
 10
637.359451829
 20
-177.1975558591
 10
640.4119451141
 20
-180.7328201682
 10
643.5630985749
 20
-184.0776276372
 10
646.79789553
 20
-187.2160387353
 10
650.1009206988
 20
-190.1330975042
 10
653.4564336622
 20
-192.8149028306
 10
656.8484438729
 20
-195.2486746908
 10
660.2607868575
 20
-197.4228150535
 10
663.6772012477
 20
-199.3269631498
 10
667.0814062731
 20
-200.952044847
 10
670.4571793464
 20
-202.2903158906
 10
673.7884333717
 20
-203.3353988097
 10
677.0592934066
 20
-204.0823133082
 10
680.2541723133
 20
-204.5274999985
 10
683.3578450389
 20
-204.6688373631
 10
686.3555211696
 20
-204.5056518653
 10
689.2329154134
 20
-204.0387211581
 10
691.9763156764
 20
-203.2702703791
 10
694.572648407
 20
-202.2039615462
 10
697.0095408973
 20
-200.8448761066
 10
699.275380245
 20
-199.1994907212
 10
701.3593686936
 20
-197.2756464009
 10
703.2515750892
 20
-195.0825111398
 10
704.9429822065
 20
-192.6305362262
 10
706.4255297204
 20
-189.9314064372
 10
707.6921526169
 20
-186.9979843556
 10
708.736814861
 20
-183.8442490732
 10
709.5545381613
 20
-180.485229575
 10
710.1414256941
 20
-176.9369331186
 10
710.4946806729
 20
-173.2162689524
 10
710.6126196768
 20
-169.3409677356
  0
ELLIPSE
  5
AB
330
1F
100
AcDbEntity
  8
0
  6
Continuous
 62
     7
370
    25
100
AcDbEllipse
 10
527.4719633495
 20
-217.917250389
 30
0.0
 11
98.99494936611677
 21
1.421085471520200E-13
 31
0.0
210
0.0
220
0.0
230
1.0
 40
0.5773815452
 41
4.712388980384697
 42
5.497705879720049
  0
LINE
  5
AC
330
1F
100
AcDbEntity
  8
0
  6
Continuous
 62
     7
370
    25
100
AcDbLine
 10
527.4719633495
 20
-137.0904021122
 30
0.0
 11
527.4719633495
 21
-275.0751072211
 31
0.0
  0
LWPOLYLINE
  5
AD
330
1F
100
AcDbEntity
  8
0
  6
Continuous
 62
     7
370
    25
100
AcDbPolyline
 90
       87
 70
   128
 43
0.0
 10
437.4572701044
 20
-115.5804935721
 10
437.3408816732
 20
-111.9701377625
 10
436.9923373621
 20
-108.5134239856
 10
436.4134968059
 20
-105.2287953051
 10
435.6074483694
 20
-102.133776636
 10
434.5784926697
 20
-99.2448812423
 10
433.3321196308
 20
-96.5775226306
 10
431.874979192
 20
-94.1459323134
 10
430.214845828
 20
-91.963083877
 10
428.3605770687
 20
-90.0406237623
 10
426.3220662401
 20
-88.3888091258
 10
424.1101896796
 20
-87.0164531132
 10
421.7367487056
 20
-85.9308778378
 10
419.2144066526
 20
-85.1378753133
 10
416.5566213069
 20
-84.6416765513
 10
413.7775731032
 20
-84.4449289868
 10
410.892089466
 20
-84.5486823532
 10
407.9155656991
 20
-84.9523830815
 10
404.8638828447
 20
-85.6538772536
 10
401.7533229511
 20
-86.6494220945
 10
398.6004822012
 20
-87.9337059418
 10
395.4221823645
 20
-89.4998765855
 10
392.2353810459
 20
-91.3395778276
 10
389.0570812093
 20
-93.4429940659
 10
385.9042404594
 20
-95.7989026648
 10
382.7936805658
 20
-98.3947338324
 10
379.7419977113
 20
-101.2166376865
 10
376.7654739445
 20
-104.2495581489
 10
373.8799903073
 20
-107.4773132767
 10
371.1009421036
 20
-110.8826815998
 10
368.4431567578
 20
-114.4474940048
 10
365.9208147049
 20
-118.152730675
 10
363.5473737309
 20
-121.9786225698
 10
361.3354971703
 20
-125.9047569003
 10
359.2969863418
 20
-129.9101860414
 10
357.4427175825
 20
-133.9735392954
 10
355.7825842185
 20
-138.0731369147
 10
354.3254437797
 20
-142.1871057722
 10
353.0790707407
 20
-146.293496064
 10
352.0501150411
 20
-150.3703984211
 10
351.2440666045
 20
-154.3960608057
 10
350.6652260483
 20
-158.3490045669
 10
350.3166817373
 20
-162.2081390396
 10
350.200293306
 20
-165.9528740715
 10
350.3166817373
 20
-169.5632298811
 10
350.6652260483
 20
-173.019943658
 10
351.2440666045
 20
-176.3045723385
 10
352.0501150411
 20
-179.3995910076
 10
353.0790707407
 20
-182.2884864013
 10
354.3254437797
 20
-184.955845013
 10
355.7825842185
 20
-187.3874353302
 10
357.4427175825
 20
-189.5702837666
 10
359.2969863418
 20
-191.4927438813
 10
361.3354971703
 20
-193.1445585178
 10
363.5473737309
 20
-194.5169145304
 10
365.9208147049
 20
-195.6024898058
 10
368.4431567578
 20
-196.3954923303
 10
371.1009421036
 20
-196.8916910923
 10
373.8799903073
 20
-197.0884386568
 10
376.7654739445
 20
-196.9846852904
 10
379.7419977113
 20
-196.5809845621
 10
382.7936805658
 20
-195.87949039
 10
385.9042404594
 20
-194.8839455491
 10
389.0570812093
 20
-193.5996617018
 10
392.2353810459
 20
-192.0334910581
 10
395.4221823645
 20
-190.193789816
 10
398.6004822012
 20
-188.0903735777
 10
401.7533229511
 20
-185.7344649788
 10
404.8638828447
 20
-183.1386338112
 10
407.9155656991
 20
-180.3167299571
 10
410.892089466
 20
-177.2838094947
 10
413.7775731032
 20
-174.0560543669
 10
416.5566213069
 20
-170.6506860438
 10
419.2144066526
 20
-167.0858736388
 10
421.7367487056
 20
-163.3806369686
 10
424.1101896796
 20
-159.5547450738
 10
426.3220662401
 20
-155.6286107433
 10
428.3605770687
 20
-151.6231816022
 10
430.214845828
 20
-147.5598283482
 10
431.874979192
 20
-143.4602307289
 10
433.3321196308
 20
-139.3462618714
 10
434.5784926697
 20
-135.2398715796
 10
435.6074483694
 20
-131.1629692225
 10
436.4134968059
 20
-127.1373068379
 10
436.9923373621
 20
-123.1843630767
 10
437.3408816732
 20
-119.325228604
 10
437.4572701044
 20
-115.5804935721
  0
LWPOLYLINE
  5
AE
330
1F
100
AcDbEntity
  8
0
  6
Continuous
 62
     7
370
    25
100
AcDbPolyline
 90
       92
 70
   128
 43
0.0
 10
443.3262563883
 20
-112.192399908
 10
443.2083173843
 20
-108.3170986912
 10
442.8550624056
 20
-104.596434525
 10
442.2681748728
 20
-101.0481380686
 10
441.4504515724
 20
-97.6891185704
 10
440.4057893284
 20
-94.5353832881
 10
439.1391664319
 20
-91.6019612064
 10
437.656618918
 20
-88.9028314174
 10
435.9652118006
 20
-86.4508565038
 10
434.0730054051
 20
-84.2577212427
 10
431.9890169565
 20
-82.3338769224
 10
429.7231776088
 20
-80.688491537
 10
427.2862851185
 20
-79.3294060974
 10
424.6899523879
 20
-78.2630972645
 10
421.9465521249
 20
-77.4946464855
 10
419.0691578811
 20
-77.0277157783
 10
416.0714817504
 20
-76.8645302805
 10
412.9678090248
 20
-77.0058676451
 10
409.7729301181
 20
-77.4510543354
 10
406.5020700832
 20
-78.1979688339
 10
403.1708160579
 20
-79.243051753
 10
399.7950429846
 20
-80.5813227966
 10
396.3908379592
 20
-82.2064044938
 10
392.974423569
 20
-84.1105525901
 10
389.5620805844
 20
-86.2846929528
 10
386.1700703737
 20
-88.718464813
 10
382.8145574103
 20
-91.4002701394
 10
379.5115322415
 20
-94.3173289084
 10
376.2767352864
 20
-97.4557400064
 10
373.1255818256
 20
-100.8005474754
 10
370.0730885405
 20
-104.3358117845
 10
367.1338019515
 20
-108.0446857895
 10
364.321729098
 20
-111.9094950165
 10
361.6502707875
 20
-115.9118218898
 10
359.1321577356
 20
-120.032593499
 10
356.7793898976
 20
-124.2521724908
 10
354.6031792839
 20
-128.5504506498
 10
352.6138965288
 20
-132.9069447231
 10
350.8210214709
 20
-137.3008940325
 10
349.233097976
 20
-141.7113594085
 10
347.8576932229
 20
-146.1173229752
 10
346.7013616415
 20
-150.4977883097
 10
345.7696136785
 20
-154.8318804997
 10
345.0668895371
 20
-159.0989456223
 10
344.5965380179
 20
-163.278649169
 10
344.3608005602
 20
-167.3510729489
 10
344.3608005602
 20
-171.2968100082
 10
344.5965380179
 20
-175.0970571128
 10
345.0668895371
 20
-178.7337043547
 10
345.7696136785
 20
-182.1894214537
 10
346.7013616415
 20
-185.4477403441
 10
347.8576932229
 20
-188.4931336525
 10
349.233097976
 20
-191.311088693
 10
350.8210214709
 20
-193.8881766264
 10
352.6138965288
 20
-196.2121164552
 10
354.6031792839
 20
-198.2718335479
 10
356.7793898976
 20
-200.0575124144
 10
359.1321577356
 20
-201.5606434817
 10
361.6502707875
 20
-202.7740636458
 10
364.321729098
 20
-203.6919904071
 10
367.1338019515
 20
-204.3100494265
 10
370.0730885405
 20
-204.6252953713
 10
373.1255818256
 20
-204.636225951
 10
376.2767352864
 20
-204.3427890764
 10
379.5115322415
 20
-203.7463831079
 10
382.8145574103
 20
-202.8498501914
 10
386.1700703737
 20
-201.6574627148
 10
389.5620805844
 20
-200.1749029471
 10
392.974423569
 20
-198.409235961
 10
396.3908379592
 20
-196.3688759637
 10
399.7950429846
 20
-194.0635461997
 10
403.1708160579
 20
-191.5042326152
 10
406.5020700832
 20
-188.703131505
 10
409.7729301181
 20
-185.6735913914
 10
412.9678090248
 20
-182.4300494128
 10
416.0714817504
 20
-178.9879625237
 10
419.0691578811
 20
-175.3637338358
 10
421.9465521249
 20
-171.5746344491
 10
424.6899523879
 20
-167.6387211478
 10
427.2862851185
 20
-163.5747503512
 10
429.7231776088
 20
-159.4020887308
 10
431.9890169565
 20
-155.1406209196
 10
434.0730054051
 20
-150.8106547522
 10
435.9652118006
 20
-146.4328244893
 10
437.656618918
 20
-142.0279924858
 10
439.1391664319
 20
-137.6171497721
 10
440.4057893284
 20
-133.2213160225
 10
441.4504515724
 20
-128.8614393865
 10
442.2681748728
 20
-124.5582966619
 10
442.8550624056
 20
-120.3323942834
 10
443.2083173843
 20
-116.2038706003
 10
443.3262563883
 20
-112.192399908
  0
LWPOLYLINE
  5
AF
330
1F
100
AcDbEntity
  8
0
  6
Continuous
 62
     7
370
    25
100
AcDbPolyline
 90
       13
 70
   128
 43
0.0
 10
710.6126196768
 20
-266.4935330425
 10
710.4946806729
 20
-262.6182318257
 10
710.1414256941
 20
-258.8975676595
 10
709.5545381613
 20
-255.3492712031
 10
708.736814861
 20
-251.9902517049
 10
707.6921526169
 20
-248.8365164225
 10
706.4255297204
 20
-245.9030943408
 10
704.9429822065
 20
-243.2039645519
 10
703.2515750892
 20
-240.7519896383
 10
701.3593686936
 20
-238.5588543772
 10
699.275380245
 20
-236.6350100569
 10
697.0095408973
 20
-234.9896246715
 10
696.112300636
 20
-234.4443965896
  0
LWPOLYLINE
  5
B0
330
1F
100
AcDbEntity
  8
0
  6
Continuous
 62
     7
370
    25
100
AcDbPolyline
 90
       36
 70
   128
 43
0.0
 10
626.1179893515
 20
-355.6912373229
 10
626.4185210241
 20
-355.8617766162
 10
628.936634076
 20
-357.0751967803
 10
631.6080923865
 20
-357.9931235416
 10
634.4201652401
 20
-358.611182561
 10
637.359451829
 20
-358.9264285058
 10
640.4119451141
 20
-358.9373590855
 10
643.5630985749
 20
-358.6439222109
 10
646.79789553
 20
-358.0475162424
 10
650.1009206988
 20
-357.1509833259
 10
653.4564336622
 20
-355.9585958492
 10
656.8484438729
 20
-354.4760360816
 10
660.2607868575
 20
-352.7103690955
 10
663.6772012477
 20
-350.6700090982
 10
667.0814062731
 20
-348.3646793342
 10
670.4571793464
 20
-345.8053657497
 10
673.7884333717
 20
-343.0042646395
 10
677.0592934066
 20
-339.9747245259
 10
680.2541723133
 20
-336.7311825473
 10
683.3578450389
 20
-333.2890956582
 10
686.3555211696
 20
-329.6648669703
 10
689.2329154134
 20
-325.8757675836
 10
691.9763156764
 20
-321.9398542823
 10
694.572648407
 20
-317.8758834857
 10
697.0095408973
 20
-313.7032218653
 10
699.275380245
 20
-309.4417540541
 10
701.3593686936
 20
-305.1117878867
 10
703.2515750892
 20
-300.7339576238
 10
704.9429822065
 20
-296.3291256203
 10
706.4255297204
 20
-291.9182829066
 10
707.6921526169
 20
-287.522449157
 10
708.736814861
 20
-283.162572521
 10
709.5545381613
 20
-278.8594297964
 10
710.1414256941
 20
-274.6335274179
 10
710.4946806729
 20
-270.5050037348
 10
710.6126196768
 20
-266.4935330425
  0
LINE
  5
B1
330
1F
100
AcDbEntity
  8
0
  6
Continuous
 62
     7
370
    25
100
AcDbLine
 10
-281.8790606626
 20
178.7403641006
 30
0.0
 11
-470.8790606626
 21
178.7403641006
 31
0.0
  0
LINE
  5
B2
330
1F
100
AcDbEntity
  8
0
  6
Continuous
 62
     7
370
    25
100
AcDbLine
 10
-92.8790606626
 20
178.7403641006
 30
0.0
 11
-281.8790606626
 21
178.7403641006
 31
0.0
  0
LINE
  5
B3
330
1F
100
AcDbEntity
  8
0
  6
Continuous
 62
     7
370
    25
100
AcDbLine
 10
-281.8790606626
 20
38.7403641006
 30
0.0
 11
-92.8790606626
 21
38.7403641006
 31
0.0
  0
LINE
  5
B4
330
1F
100
AcDbEntity
  8
0
  6
Continuous
 62
     7
370
    25
100
AcDbLine
 10
-470.8790606626
 20
38.7403641006
 30
0.0
 11
-281.8790606626
 21
38.7403641006
 31
0.0
  0
CIRCLE
  5
B5
330
1F
100
AcDbEntity
  8
0
  6
Continuous
 62
     7
370
    25
100
AcDbCircle
 10
-281.8790606626
 20
108.7403641006
 30
0.0
 40
61.70000000000002
  0
CIRCLE
  5
B6
330
1F
100
AcDbEntity
  8
0
  6
Continuous
 62
     7
370
    25
100
AcDbCircle
 10
-281.8790606626
 20
108.7403641006
 30
0.0
 40
70.00000000000003
  0
LINE
  5
B7
330
1F
100
AcDbEntity
  8
0
  6
Continuous
 62
     7
370
    25
100
AcDbLine
 10
-470.8790606626
 20
108.7403641006
 30
0.0
 11
-470.8790606626
 21
178.7403641006
 31
0.0
  0
LINE
  5
B8
330
1F
100
AcDbEntity
  8
0
  6
Continuous
 62
     7
370
    25
100
AcDbLine
 10
-470.8790606626
 20
38.7403641006
 30
0.0
 11
-470.8790606626
 21
108.7403641006
 31
0.0
  0
LINE
  5
B9
330
1F
100
AcDbEntity
  8
0
  6
Continuous
 62
     7
370
    25
100
AcDbLine
 10
-92.8790606626
 20
108.7403641006
 30
0.0
 11
-92.8790606626
 21
178.7403641006
 31
0.0
  0
LINE
  5
BA
330
1F
100
AcDbEntity
  8
0
  6
Continuous
 62
     7
370
    25
100
AcDbLine
 10
-92.8790606626
 20
38.7403641006
 30
0.0
 11
-92.8790606626
 21
108.7403641006
 31
0.0
  0
INSERT
  5
C6
330
1F
100
AcDbEntity
  8
FORMAT
100
AcDbBlockReference
  2
SW_CENTERMARKSYMBOL_1
 10
-281.8790606626
 20
108.7403641006
 30
0.0
  0
LINE
  5
C7
330
1F
100
AcDbEntity
  8
0
  6
Continuous
 62
     7
370
    25
100
AcDbLine
 10
7.9095018082
 20
-65.0039466522
 30
0.0
 11
7.9095018082
 21
-443.0039466522
 31
0.0
  0
LINE
  5
C8
330
1F
100
AcDbEntity
  8
0
  6
Continuous
 62
     7
370
    25
100
AcDbLine
 10
147.9095018082
 20
-184.0039466522
 30
0.0
 11
147.9095018082
 21
-65.0039466522
 31
0.0
  0
LINE
  5
C9
330
1F
100
AcDbEntity
  8
0
  6
Continuous
 62
     7
370
    25
100
AcDbLine
 10
147.9095018082
 20
-443.0039466522
 30
0.0
 11
147.9095018082
 21
-324.0039466522
 31
0.0
  0
LINE
  5
CA
330
1F
100
AcDbEntity
  8
0
  6
Continuous
 62
     7
370
    25
100
AcDbLine
 10
147.9095018082
 20
-324.0039466522
 30
0.0
 11
266.9095018082
 21
-324.0039466522
 31
0.0
  0
LINE
  5
CB
330
1F
100
AcDbEntity
  8
0
  6
Continuous
 62
     7
370
    25
100
AcDbLine
 10
266.9095018082
 20
-184.0039466522
 30
0.0
 11
147.9095018082
 21
-184.0039466522
 31
0.0
  0
LINE
  5
CC
330
1F
100
AcDbEntity
  8
0
  6
Continuous
 62
     7
370
    25
100
AcDbLine
 10
77.9095018082
 20
-254.0039466522
 30
0.0
 11
147.9095018082
 21
-324.0039466522
 31
0.0
  0
LINE
  5
CD
330
1F
100
AcDbEntity
  8
0
  6
Continuous
 62
     7
370
    25
100
AcDbLine
 10
147.9095018082
 20
-184.0039466522
 30
0.0
 11
77.9095018082
 21
-254.0039466522
 31
0.0
  0
LINE
  5
CE
330
1F
100
AcDbEntity
  8
0
  6
Continuous
 62
     7
370
    25
100
AcDbLine
 10
147.9095018082
 20
-443.0039466522
 30
0.0
 11
7.9095018082
 21
-443.0039466522
 31
0.0
  0
LINE
  5
CF
330
1F
100
AcDbEntity
  8
0
  6
Continuous
 62
     7
370
    25
100
AcDbLine
 10
147.9095018082
 20
-65.0039466522
 30
0.0
 11
7.9095018082
 21
-65.0039466522
 31
0.0
  0
LINE
  5
D0
330
1F
100
AcDbEntity
  8
0
  6
Continuous
 62
     7
370
    25
100
AcDbLine
 10
266.9095018082
 20
-184.0039466522
 30
0.0
 11
266.9095018082
 21
-324.0039466522
 31
0.0
  0
ENDSEC
  0
SECTION
  2
OBJECTS
  0
DICTIONARY
  5
C
330
0
100
AcDbDictionary
281
     1
  3
ACAD_GROUP
350
D
  3
ACAD_LAYOUT
350
1A
  3
ACAD_MLINESTYLE
350
17
  3
ACAD_PLOTSETTINGS
350
19
  3
ACAD_PLOTSTYLENAME
350
E
  3
ACAD_SCALELIST
350
47
  3
DWGPROPS
350
D1
  0
DICTIONARY
  5
D
102
{ACAD_REACTORS
330
C
102
}
330
C
100
AcDbDictionary
281
     1
  0
DICTIONARY
  5
1A
102
{ACAD_REACTORS
330
C
102
}
330
C
100
AcDbDictionary
281
     1
  3
Layout1
350
1E
  3
Layout2
350
26
  3
Model
350
22
  0
DICTIONARY
  5
17
102
{ACAD_REACTORS
330
C
102
}
330
C
100
AcDbDictionary
281
     1
  3
Standard
350
18
  0
DICTIONARY
  5
19
102
{ACAD_REACTORS
330
C
102
}
330
C
100
AcDbDictionary
281
     1
  0
ACDBDICTIONARYWDFLT
  5
E
102
{ACAD_REACTORS
330
C
102
}
330
C
100
AcDbDictionary
281
     1
  3
Normal
350
F
100
AcDbDictionaryWithDefault
340
F
  0
DICTIONARY
  5
47
102
{ACAD_REACTORS
330
C
102
}
330
C
100
AcDbDictionary
281
     1
  3
A0
350
48
  3
A1
350
49
  3
A2
350
4A
  3
A3
350
4B
  3
A4
350
4C
  3
A5
350
4D
  3
A6
350
4E
  3
A7
350
4F
  3
A8
350
50
  3
A9
350
51
  3
B0
350
52
  3
B1
350
53
  3
B2
350
54
  3
B3
350
55
  3
B4
350
56
  3
B5
350
57
  3
B6
350
58
  3
B7
350
59
  3
B8
350
5A
  3
B9
350
5B
  3
C0
350
5C
  3
C1
350
5D
  3
C2
350
5E
  3
C3
350
5F
  3
C4
350
60
  3
C5
350
61
  3
C6
350
62
  3
C7
350
63
  3
C8
350
64
  3
C9
350
65
  3
D0
350
66
  3
D1
350
67
  3
D2
350
68
  0
XRECORD
  5
D1
102
{ACAD_REACTORS
330
C
102
}
330
C
100
AcDbXrecord
280
     1
  1
DWGPROPS COOKIE
  2

  3

  4

  6

  7

  8
b.kav
  9

300
=
301
=
302
=
303
=
304
=
305
=
306
=
307
=
308
=
309
=
 40
0.0
 41
2459935.575527731
 42
2459935.575527859
  1

 90
        0
  0
LAYOUT
  5
1E
102
{ACAD_REACTORS
330
1A
102
}
330
1A
100
AcDbPlotSettings
  1

  2
none_device
  4

  6

 40
0.0
 41
0.0
 42
0.0
 43
0.0
 44
0.0
 45
0.0
 46
0.0
 47
0.0
 48
0.0
 49
0.0
140
0.0
141
0.0
142
1.0
143
1.0
 70
   688
 72
     1
 73
     0
 74
     5
  7

 75
    16
147
1.0
148
0.0
149
0.0
100
AcDbLayout
  1
Layout1
 70
     1
 71
     1
 10
0.0
 20
0.0
 11
420.0
 21
297.0
 12
0.0
 22
0.0
 32
0.0
 14
1.0000000000E+20
 24
1.0000000000E+20
 34
1.0000000000E+20
 15
-1.0000000000E+20
 25
-1.0000000000E+20
 35
-1.0000000000E+20
146
0.0
 13
0.0
 23
0.0
 33
0.0
 16
1.0
 26
0.0
 36
0.0
 17
0.0
 27
1.0
 37
0.0
 76
     0
330
1B
  0
LAYOUT
  5
26
102
{ACAD_REACTORS
330
1A
102
}
330
1A
100
AcDbPlotSettings
  1

  2
none_device
  4

  6

 40
0.0
 41
0.0
 42
0.0
 43
0.0
 44
0.0
 45
0.0
 46
0.0
 47
0.0
 48
0.0
 49
0.0
140
0.0
141
0.0
142
1.0
143
1.0
 70
   688
 72
     1
 73
     0
 74
     5
  7

 75
    16
147
1.0
148
0.0
149
0.0
100
AcDbLayout
  1
Layout2
 70
     1
 71
     2
 10
0.0
 20
0.0
 11
0.0
 21
0.0
 12
0.0
 22
0.0
 32
0.0
 14
0.0
 24
0.0
 34
0.0
 15
0.0
 25
0.0
 35
0.0
146
0.0
 13
0.0
 23
0.0
 33
0.0
 16
1.0
 26
0.0
 36
0.0
 17
0.0
 27
1.0
 37
0.0
 76
     0
330
23
  0
LAYOUT
  5
22
102
{ACAD_REACTORS
330
1A
102
}
330
1A
100
AcDbPlotSettings
  1

  2
none_device
  4
Letter_(8.50_x_11.00_Inches)
  6

 40
6.35
 41
6.35
 42
6.35000508
 43
6.35000508
 44
215.9
 45
279.4
 46
0.0
 47
0.0
 48
0.0
 49
0.0
140
0.0
141
0.0
142
1.0
143
1.0
 70
  1712
 72
     1
 73
     0
 74
     0
  7

 75
     0
147
1.0
148
0.0
149
0.0
100
AcDbLayout
  1
Model
 70
     1
 71
     0
 10
0.0
 20
0.0
 11
279.4
 21
215.9
 12
0.0
 22
0.0
 32
0.0
 14
0.0
 24
0.0
 34
0.0
 15
279.4
 25
215.9
 35
0.0
146
0.0
 13
0.0
 23
0.0
 33
0.0
 16
1.0
 26
0.0
 36
0.0
 17
0.0
 27
1.0
 37
0.0
 76
     0
330
1F
331
29
  0
MLINESTYLE
  5
18
102
{ACAD_REACTORS
330
17
102
}
330
17
100
AcDbMlineStyle
  2
Standard
 70
     0
  3

 62
   256
 51
90.0
 52
90.0
 71
     2
 49
0.5
 62
   256
  6
BYLAYER
 49
-0.5
 62
   256
  6
BYLAYER
  0
ACDBPLACEHOLDER
  5
F
102
{ACAD_REACTORS
330
E
102
}
330
E
  0
SCALE
  5
48
102
{ACAD_REACTORS
330
47
102
}
330
47
100
AcDbScale
 70
     0
300
1:1
140
1.0
141
1.0
290
     1
  0
SCALE
  5
49
102
{ACAD_REACTORS
330
47
102
}
330
47
100
AcDbScale
 70
     0
300
1:2
140
1.0
141
2.0
290
     0
  0
SCALE
  5
4A
102
{ACAD_REACTORS
330
47
102
}
330
47
100
AcDbScale
 70
     0
300
1:4
140
1.0
141
4.0
290
     0
  0
SCALE
  5
4B
102
{ACAD_REACTORS
330
47
102
}
330
47
100
AcDbScale
 70
     0
300
1:5
140
1.0
141
5.0
290
     0
  0
SCALE
  5
4C
102
{ACAD_REACTORS
330
47
102
}
330
47
100
AcDbScale
 70
     0
300
1:8
140
1.0
141
8.0
290
     0
  0
SCALE
  5
4D
102
{ACAD_REACTORS
330
47
102
}
330
47
100
AcDbScale
 70
     0
300
1:10
140
1.0
141
10.0
290
     0
  0
SCALE
  5
4E
102
{ACAD_REACTORS
330
47
102
}
330
47
100
AcDbScale
 70
     0
300
1:16
140
1.0
141
16.0
290
     0
  0
SCALE
  5
4F
102
{ACAD_REACTORS
330
47
102
}
330
47
100
AcDbScale
 70
     0
300
1:20
140
1.0
141
20.0
290
     0
  0
SCALE
  5
50
102
{ACAD_REACTORS
330
47
102
}
330
47
100
AcDbScale
 70
     0
300
1:30
140
1.0
141
30.0
290
     0
  0
SCALE
  5
51
102
{ACAD_REACTORS
330
47
102
}
330
47
100
AcDbScale
 70
     0
300
1:40
140
1.0
141
40.0
290
     0
  0
SCALE
  5
52
102
{ACAD_REACTORS
330
47
102
}
330
47
100
AcDbScale
 70
     0
300
1:50
140
1.0
141
50.0
290
     0
  0
SCALE
  5
53
102
{ACAD_REACTORS
330
47
102
}
330
47
100
AcDbScale
 70
     0
300
1:100
140
1.0
141
100.0
290
     0
  0
SCALE
  5
54
102
{ACAD_REACTORS
330
47
102
}
330
47
100
AcDbScale
 70
     0
300
2:1
140
2.0
141
1.0
290
     0
  0
SCALE
  5
55
102
{ACAD_REACTORS
330
47
102
}
330
47
100
AcDbScale
 70
     0
300
4:1
140
4.0
141
1.0
290
     0
  0
SCALE
  5
56
102
{ACAD_REACTORS
330
47
102
}
330
47
100
AcDbScale
 70
     0
300
8:1
140
8.0
141
1.0
290
     0
  0
SCALE
  5
57
102
{ACAD_REACTORS
330
47
102
}
330
47
100
AcDbScale
 70
     0
300
10:1
140
10.0
141
1.0
290
     0
  0
SCALE
  5
58
102
{ACAD_REACTORS
330
47
102
}
330
47
100
AcDbScale
 70
     0
300
100:1
140
100.0
141
1.0
290
     0
  0
SCALE
  5
59
102
{ACAD_REACTORS
330
47
102
}
330
47
100
AcDbScale
 70
     0
300
1/128" = 1'-0"
140
0.0078125
141
12.0
290
     0
  0
SCALE
  5
5A
102
{ACAD_REACTORS
330
47
102
}
330
47
100
AcDbScale
 70
     0
300
1/64" = 1'-0"
140
0.015625
141
12.0
290
     0
  0
SCALE
  5
5B
102
{ACAD_REACTORS
330
47
102
}
330
47
100
AcDbScale
 70
     0
300
1/32" = 1'-0"
140
0.03125
141
12.0
290
     0
  0
SCALE
  5
5C
102
{ACAD_REACTORS
330
47
102
}
330
47
100
AcDbScale
 70
     0
300
1/16" = 1'-0"
140
0.0625
141
12.0
290
     0
  0
SCALE
  5
5D
102
{ACAD_REACTORS
330
47
102
}
330
47
100
AcDbScale
 70
     0
300
3/32" = 1'-0"
140
0.09375
141
12.0
290
     0
  0
SCALE
  5
5E
102
{ACAD_REACTORS
330
47
102
}
330
47
100
AcDbScale
 70
     0
300
1/8" = 1'-0"
140
0.125
141
12.0
290
     0
  0
SCALE
  5
5F
102
{ACAD_REACTORS
330
47
102
}
330
47
100
AcDbScale
 70
     0
300
3/16" = 1'-0"
140
0.1875
141
12.0
290
     0
  0
SCALE
  5
60
102
{ACAD_REACTORS
330
47
102
}
330
47
100
AcDbScale
 70
     0
300
1/4" = 1'-0"
140
0.25
141
12.0
290
     0
  0
SCALE
  5
61
102
{ACAD_REACTORS
330
47
102
}
330
47
100
AcDbScale
 70
     0
300
3/8" = 1'-0"
140
0.375
141
12.0
290
     0
  0
SCALE
  5
62
102
{ACAD_REACTORS
330
47
102
}
330
47
100
AcDbScale
 70
     0
300
1/2" = 1'-0"
140
0.5
141
12.0
290
     0
  0
SCALE
  5
63
102
{ACAD_REACTORS
330
47
102
}
330
47
100
AcDbScale
 70
     0
300
3/4" = 1'-0"
140
0.75
141
12.0
290
     0
  0
SCALE
  5
64
102
{ACAD_REACTORS
330
47
102
}
330
47
100
AcDbScale
 70
     0
300
1" = 1'-0"
140
1.0
141
12.0
290
     0
  0
SCALE
  5
65
102
{ACAD_REACTORS
330
47
102
}
330
47
100
AcDbScale
 70
     0
300
1-1/2" = 1'-0"
140
1.5
141
12.0
290
     0
  0
SCALE
  5
66
102
{ACAD_REACTORS
330
47
102
}
330
47
100
AcDbScale
 70
     0
300
3" = 1'-0"
140
3.0
141
12.0
290
     0
  0
SCALE
  5
67
102
{ACAD_REACTORS
330
47
102
}
330
47
100
AcDbScale
 70
     0
300
6" = 1'-0"
140
6.0
141
12.0
290
     0
  0
SCALE
  5
68
102
{ACAD_REACTORS
330
47
102
}
330
47
100
AcDbScale
 70
     0
300
1'-0" = 1'-0"
140
12.0
141
12.0
290
     0
  0
ENDSEC
  0
EOF
